FAQ   Search   Memberlist   Usergroups   Register   Profile      Log in to check your messages   Log in 

Guitar tabs and the sort?
Goto page Previous  1, 2, 3
 
Post new topic   Reply to topic    avenue-b Forum Index -> creative people must be stopped
View previous topic :: View next topic  
Author Message
dario



Joined: 23 May 2010
Posts: 16

PostPosted: Tue Jan 04, 2011 12:23 am    Post subject: Reply with quote

Shy Kind of Guy
This is the basic rhythm, without the guitar solos.

Intro/Verse
e|--------------------|--------------------|--------------------|--------------------||
B|---0-0---0-0---0-|---0-0---0-0---0-|---3-3---3-3---3-|---0-0---0-0---0-||
G|---0-0---0-0---0-|---0-0---0-0---0-|---2-2---2-2---2-|---1-1---1-1---1-||
D|---------------2---|---------------2---|--------0-------3---|--------------------||
A|-0------3----------|-0-----3----------|-2------------------|---------------2---||
E|--------------------|--------------------|--------------------|-0------4---------||


Chorus
e|---1-1---1-1---1-|---1-1---1-1---1-|--------------------|--------------------||
B|---3-3---3-3---3-|---3-3---3-3---3-|---0-0---0-0---0-|---0-0---0-0---0-||
G|---------------2---|-3------------------|---0-0---0-0---0-|---0-0---0-0---0-||
D|-0------3---------|---------3-----0---|----------------2---|---------------2----||
A|--------------------|--------------------|-0------3----------|-0------3----------||
E|--------------------|--------------------|--------------------|--------------------||


e|---2-2---2-2---2-|---2-2---2-2---2-|---1-1---1-1---1-|-----1------0----||
B|---3-3---3-3---3-|---3-3---3-3---3-|---3-3---3-3---3-|-----1------3----||
G|---------------2---|----------------2---|---------------2---|-----2------1----||
D|-0------4---------|-0------4-----------|-0-----3-----------|------------------||
A|--------------------|--------------------|--------------------|-------------------||
E|--------------------|--------------------|---------------------|-1-------0-------||



Towards the end...
e|--------------------|--------------------|---1-1---1-1---1-|-----1------0----||
B|---0-0---0-0---0-|---0-0---0-0---0-|---3-3---3-3---3-|-----1------3----||
G|---0-0---0-0---0-|---0-0---0-0---0-|---------------2---|-----2------1----||
D|---------------2---|---------------2---|-0------3----------|-------------------||
A|-0------3----------|-0------3---------|--------------------|-------------------||
E|--------------------|--------------------|--------------------|-1-------0-------||
Back to top
View user's profile Send private message
dario



Joined: 23 May 2010
Posts: 16

PostPosted: Tue Jan 04, 2011 12:29 am    Post subject: Reply with quote

Letter To Mother

Main riff
e|-1---x-5---x-0-0-|-x------------------|-0---x-0---x-0---|-----------------------||
B|-1---x-6---x-1-0-|-x------------------|-0---x-1---x-0---|-----------------------||
G|-2---x-7---x-2-2-|-x-2--10-9-------|-1---x-1---x-1---|-----------------------||
D|-3---x-7---x-2-2-|-x-2---------10\--|-2---x-2---x-2---|-----------------------||
A|-3---x-5---x-0-0-|-x-0---8--7-------|-2---x-2---x-2---|-6/7-7-7-7-7-7-7-||
E|-1---x-----x-------|-x-------------8\--|-0---x-0---x-0---|-4/5-5-5-5-5-5-5-||

Verse- all Am

Chorus
Dm-----------------Am
In blue darkness of the night

G----------------------------C
She keeps imagining one thing

Dm-------------------Am------------E
Someone stuck his Finnish knife

------------Am
Under my heart


Ending
--Am--------Dm
I know she definitely grieves sorely for me
--------------Am
I know shes dirty and angry for me
E
When I come back she forgive me so
Am-------------------------A7 (except last time)
Motherly motherly motherly

______

Enjoy and correct me if I'm wrong!
Back to top
View user's profile Send private message
Lepro



Joined: 30 Apr 2011
Posts: 10
Location: Italy/Spain

PostPosted: Sun May 08, 2011 9:43 pm    Post subject: Reply with quote

I'm playng when the universe collide with C G Bm7 Em and it's sound good..

Any one knows the immigraniada strumming pattern? it's like rumba or something like that.. I can't figure it out
Back to top
View user's profile Send private message
tsiganskipankrok



Joined: 28 Jul 2011
Posts: 9
Location: Kyiv, Ukraiina!

PostPosted: Thu Sep 01, 2011 8:33 pm    Post subject: Reply with quote

Anybody have the tabs for the beginning of Forces Of Victory and the chords????
_________________
Серебряные зайцы водят хоровод!
Back to top
View user's profile Send private message
w0nderlustqueen



Joined: 18 May 2011
Posts: 326
Location: I Stay on the Run

PostPosted: Mon Jul 16, 2012 10:58 pm    Post subject: Reply with quote

Gogol Bordello Tabs / Gogol Bordello Chords from AZchords:

http://www.azchords.com/g/gogolbordello-tabs-24028.html
Back to top
View user's profile Send private message Send e-mail Visit poster's website
FrtBsktSprnkldWthNctrs



Joined: 23 Feb 2010
Posts: 5
Location: Vancouver, BC

PostPosted: Tue Sep 11, 2012 7:38 pm    Post subject: Stivali e Colbacco Chords!!! Reply with quote

This is my favourite song off of their Russia-only release album : P
It took some time to find but hopefully it's alright. I'm sure I'll be told if not... Wink

Stivali e Colbacco

Em B Em B Em

B
Mi sembra la figlia Di un capo cosacco

B7 Em
Con quegli stivali E quel nero... Colbacco

Am Em
Ahi, ahi,ahi Ahi, ahi, ahi

B
Chiunque ti guarda Rimane di stucco

B7 Em
Ed ogni ragazzo Si sente un calmucco

B7 Em
Ahi ahi ahi ahi ahi

B7 Em
Tutta la gente si gira Si gira.

B7 Em
Quando ti vede passar Passar.

Am Em
Non sente piu che c'e' freddo C'e' freddo.

F#7 B7
E resta ferma a guardar.

Em B
Sei alta sei bionda Sei proprio uno spacco

B7 Em
Con quegli stivali E quel nero colbacco.

Am Em
Ahi ahi ahi Ahi ahi ahi


B Em B Em B7 Em


B7 Em
Tutta la gente si gira Si gira.

B7 Em
Quando ti vede passar Passar.

Am Em
Non sente piu che c'e' freddo C'e' freddo.

F#7 B7
E resta ferma a guardar.

Em B
Sei alta sei bionda Sei proprio uno spacco

B7 Em
Con quegli stivali E quel nero colbacco.

Am Em
Ahi ahi ahi Ahi ahi ahi


B Em B Em

B7 Em
Ahi ahi ahi Ahi ahi ahi

B7 Em
Tutta la gente si gira Si gira.

B7 Em
Quando ti vede passar Passar.

Am Em
Non sente piu che c'e freddo C'e freddo.

F#7 B7
E resta ferma a guardar.

Em B
Sei alta sei bionda Sei proprio uno spacco

B7 Em
Con quegli stivali E quel nero colbacco.

Am Em
Ahi ahi ahi Ahi ahi ahi

Am Em
Ahi ahi ahi Ahi ahi ahi

Am
Ahi ahi ahi Ahi ahi ahi

Em Am
Ahi ahi ahi Ahi ahi ahi

Em
Hey hey hey



B Em B Em B Em B Em B Em B Em

***
_________________
RANTARANTASUPERTARANTARANTARANTASUPERTARANTARANTARANTASUPERTARANTARANTARANTASUPERTARANTA
Back to top
View user's profile Send private message
joediamond



Joined: 18 Aug 2012
Posts: 2
Location: Winnipeg

PostPosted: Sat Sep 22, 2012 9:28 am    Post subject: Reply with quote

hey guys, I'm currently finishing up the tabs for alot of songs that arn't on the internet, such as the violin tabs for My Strange Uncles, Mishto, Baro Foro, and others.

Right now I have Mishto and Not a Crime done, and will have the others done shortly. You can see them at my website at www.vaticansexparty.com under their video.

Cheers.
Back to top
View user's profile Send private message Visit poster's website
Grzeni



Joined: 22 May 2013
Posts: 2

PostPosted: Mon Jun 24, 2013 10:25 pm    Post subject: Reply with quote

Hi, I need intro tab to Cynic, please help me:( that melody is so beautiful, I would like to play it...
Back to top
View user's profile Send private message
RomaWonderKin



Joined: 22 Jun 2013
Posts: 17

PostPosted: Fri Jun 28, 2013 11:50 pm    Post subject: Reply with quote

Does anyone know the chords to Lost Innocent World ? I know the first three chords are Em, G and Am.

And does anyone know the notes or tabs to Nostalgic For the Future ?
Back to top
View user's profile Send private message
Display posts from previous:   
Post new topic   Reply to topic    avenue-b Forum Index -> creative people must be stopped All times are GMT + 1 Hour
Goto page Previous  1, 2, 3
Page 3 of 3

 
Jump to:  
You cannot post new topics in this forum
You cannot reply to topics in this forum
You cannot edit your posts in this forum
You cannot delete your posts in this forum
You cannot vote in polls in this forum


Powered by phpBB